  0
SECTION
  2
HEADER
  9
$EXTMIN
 10
9.9351288
 20
53.5507185
  9
$EXTMAX
 10
9.9480222
 20
53.5527845
  0
ENDSEC
  0
SECTION
  2
ENTITIES
  0
POLYLINE
  8
0
 66
     1
  0
VERTEX
  8
0
 10
9.9361470
 20
53.5526420
  0
VERTEX
  8
0
 10
9.9360610
 20
53.5525350
  0
VERTEX
  8
0
 10
9.9360610
 20
53.5525770
  0
VERTEX
  8
0
 10
9.9360180
 20
53.5524920
  0
VERTEX
  8
0
 10
9.9360390
 20
53.5525130
  0
SEQEND
  0
POLYLINE
  8
0
 66
     1
  0
VERTEX
  8
0
 10
9.9360390
 20
53.5524920
  0
SEQEND
  0
POLYLINE
  8
0
 66
     1
  0
VERTEX
  8
0
 10
9.9360390
 20
53.5524700
  0
VERTEX
  8
0
 10
9.9360390
 20
53.5524700
  0
SEQEND
  0
POLYLINE
  8
0
 66
     1
  0
VERTEX
  8
0
 10
9.9360390
 20
53.5524700
  0
VERTEX
  8
0
 10
9.9360390
 20
53.5524700
  0
SEQEND
  0
POLYLINE
  8
0
 66
     1
  0
VERTEX
  8
0
 10
9.9360390
 20
53.5524700
  0
VERTEX
  8
0
 10
9.9360390
 20
53.5524700
  0
SEQEND
  0
POLYLINE
  8
0
 66
     1
  0
VERTEX
  8
0
 10
9.9360390
 20
53.5524700
  0
VERTEX
  8
0
 10
9.9360820
 20
53.5524700
  0
VERTEX
  8
0
 10
9.9360820
 20
53.5524700
  0
VERTEX
  8
0
 10
9.9361250
 20
53.5524700
  0
VERTEX
  8
0
 10
9.9361470
 20
53.5524920
  0
VERTEX
  8
0
 10
9.9362110
 20
53.5524920
  0
VERTEX
  8
0
 10
9.9362750
 20
53.5525130
  0
VERTEX
  8
0
 10
9.9363610
 20
53.5525130
  0
VERTEX
  8
0
 10
9.9364040
 20
53.5525350
  0
VERTEX
  8
0
 10
9.9366830
 20
53.5525560
  0
VERTEX
  8
0
 10
9.9367480
 20
53.5525560
  0
VERTEX
  8
0
 10
9.9368550
 20
53.5525350
  0
VERTEX
  8
0
 10
9.9368980
 20
53.5525350
  0
VERTEX
  8
0
 10
9.9369840
 20
53.5525350
  0
VERTEX
  8
0
 10
9.9370270
 20
53.5525560
  0
VERTEX
  8
0
 10
9.9370690
 20
53.5525560
  0
VERTEX
  8
0
 10
9.9371980
 20
53.5525770
  0
VERTEX
  8
0
 10
9.9371980
 20
53.5525990
  0
VERTEX
  8
0
 10
9.9372410
 20
53.5525990
  0
VERTEX
  8
0
 10
9.9373270
 20
53.5525990
  0
VERTEX
  8
0
 10
9.9373910
 20
53.5525770
  0
VERTEX
  8
0
 10
9.9375200
 20
53.5525770
  0
VERTEX
  8
0
 10
9.9375410
 20
53.5525350
  0
VERTEX
  8
0
 10
9.9380560
 20
53.5522770
  0
VERTEX
  8
0
 10
9.9380990
 20
53.5522770
  0
VERTEX
  8
0
 10
9.9381210
 20
53.5522770
  0
VERTEX
  8
0
 10
9.9382280
 20
53.5522770
  0
VERTEX
  8
0
 10
9.9383140
 20
53.5522560
  0
VERTEX
  8
0
 10
9.9383570
 20
53.5522340
  0
VERTEX
  8
0
 10
9.9383780
 20
53.5522340
  0
VERTEX
  8
0
 10
9.9384000
 20
53.5522340
  0
VERTEX
  8
0
 10
9.9384430
 20
53.5522340
  0
VERTEX
  8
0
 10
9.9385070
 20
53.5522560
  0
VERTEX
  8
0
 10
9.9386790
 20
53.5522560
  0
VERTEX
  8
0
 10
9.9387220
 20
53.5522340
  0
VERTEX
  8
0
 10
9.9387650
 20
53.5522340
  0
VERTEX
  8
0
 10
9.9388930
 20
53.5522130
  0
VERTEX
  8
0
 10
9.9389360
 20
53.5522130
  0
VERTEX
  8
0
 10
9.9390860
 20
53.5521910
  0
VERTEX
  8
0
 10
9.9391290
 20
53.5521910
  0
VERTEX
  8
0
 10
9.9391720
 20
53.5521700
  0
VERTEX
  8
0
 10
9.9392150
 20
53.5521700
  0
VERTEX
  8
0
 10
9.9392370
 20
53.5521700
  0
VERTEX
  8
0
 10
9.9392800
 20
53.5521700
  0
VERTEX
  8
0
 10
9.9393010
 20
53.5521700
  0
VERTEX
  8
0
 10
9.9393650
 20
53.5521480
  0
VERTEX
  8
0
 10
9.9394080
 20
53.5521480
  0
VERTEX
  8
0
 10
9.9394730
 20
53.5521270
  0
VERTEX
  8
0
 10
9.9395370
 20
53.5521270
  0
VERTEX
  8
0
 10
9.9396440
 20
53.5521050
  0
VERTEX
  8
0
 10
9.9396870
 20
53.5521050
  0
VERTEX
  8
0
 10
9.9397300
 20
53.5520840
  0
VERTEX
  8
0
 10
9.9397730
 20
53.5520630
  0
VERTEX
  8
0
 10
9.9398800
 20
53.5519980
  0
VERTEX
  8
0
 10
9.9399450
 20
53.5519550
  0
VERTEX
  8
0
 10
9.9399880
 20
53.5519340
  0
VERTEX
  8
0
 10
9.9400310
 20
53.5519120
  0
VERTEX
  8
0
 10
9.9400520
 20
53.5519120
  0
VERTEX
  8
0
 10
9.9400950
 20
53.5518910
  0
VERTEX
  8
0
 10
9.9401590
 20
53.5518690
  0
VERTEX
  8
0
 10
9.9402880
 20
53.5518480
  0
VERTEX
  8
0
 10
9.9403310
 20
53.5518050
  0
VERTEX
  8
0
 10
9.9402880
 20
53.5517840
  0
VERTEX
  8
0
 10
9.9402450
 20
53.5517840
  0
VERTEX
  8
0
 10
9.9402240
 20
53.5517620
  0
VERTEX
  8
0
 10
9.9403310
 20
53.5517620
  0
VERTEX
  8
0
 10
9.9403310
 20
53.5517620
  0
VERTEX
  8
0
 10
9.9403310
 20
53.5517840
  0
VERTEX
  8
0
 10
9.9403520
 20
53.5517840
  0
VERTEX
  8
0
 10
9.9403520
 20
53.5517840
  0
VERTEX
  8
0
 10
9.9403520
 20
53.5517620
  0
VERTEX
  8
0
 10
9.9403310
 20
53.5517840
  0
VERTEX
  8
0
 10
9.9403310
 20
53.5517840
  0
VERTEX
  8
0
 10
9.9402880
 20
53.5517840
  0
VERTEX
  8
0
 10
9.9402880
 20
53.5517840
  0
VERTEX
  8
0
 10
9.9402450
 20
53.5517620
  0
VERTEX
  8
0
 10
9.9402020
 20
53.5517620
  0
VERTEX
  8
0
 10
9.9401380
 20
53.5517620
  0
VERTEX
  8
0
 10
9.9401160
 20
53.5517620
  0
VERTEX
  8
0
 10
9.9400090
 20
53.5517840
  0
VERTEX
  8
0
 10
9.9399880
 20
53.5517840
  0
VERTEX
  8
0
 10
9.9399230
 20
53.5518050
  0
VERTEX
  8
0
 10
9.9397730
 20
53.5518480
  0
VERTEX
  8
0
 10
9.9397300
 20
53.5518480
  0
VERTEX
  8
0
 10
9.9396010
 20
53.5518480
  0
VERTEX
  8
0
 10
9.9393650
 20
53.5517840
  0
VERTEX
  8
0
 10
9.9393440
 20
53.5517840
  0
VERTEX
  8
0
 10
9.9393010
 20
53.5517620
  0
VERTEX
  8
0
 10
9.9392370
 20
53.5517620
  0
VERTEX
  8
0
 10
9.9391940
 20
53.5517620
  0
VERTEX
  8
0
 10
9.9391720
 20
53.5517620
  0
VERTEX
  8
0
 10
9.9388290
 20
53.5517410
  0
VERTEX
  8
0
 10
9.9387430
 20
53.5517190
  0
VERTEX
  8
0
 10
9.9385930
 20
53.5517410
  0
VERTEX
  8
0
 10
9.9385710
 20
53.5517410
  0
VERTEX
  8
0
 10
9.9385290
 20
53.5517410
  0
VERTEX
  8
0
 10
9.9385070
 20
53.5517410
  0
VERTEX
  8
0
 10
9.9384000
 20
53.5516980
  0
VERTEX
  8
0
 10
9.9383350
 20
53.5516980
  0
VERTEX
  8
0
 10
9.9382930
 20
53.5516980
  0
VERTEX
  8
0
 10
9.9382280
 20
53.5516980
  0
VERTEX
  8
0
 10
9.9381640
 20
53.5516760
  0
VERTEX
  8
0
 10
9.9380560
 20
53.5516980
  0
VERTEX
  8
0
 10
9.9380140
 20
53.5516980
  0
VERTEX
  8
0
 10
9.9379280
 20
53.5516980
  0
VERTEX
  8
0
 10
9.9377990
 20
53.5516980
  0
VERTEX
  8
0
 10
9.9377130
 20
53.5516980
  0
VERTEX
  8
0
 10
9.9375840
 20
53.5516980
  0
VERTEX
  8
0
 10
9.9373910
 20
53.5516760
  0
VERTEX
  8
0
 10
9.9373480
 20
53.5516760
  0
VERTEX
  8
0
 10
9.9372840
 20
53.5516550
  0
VERTEX
  8
0
 10
9.9372410
 20
53.5516550
  0
VERTEX
  8
0
 10
9.9372200
 20
53.5516550
  0
VERTEX
  8
0
 10
9.9372200
 20
53.5516550
  0
VERTEX
  8
0
 10
9.9372410
 20
53.5516550
  0
VERTEX
  8
0
 10
9.9371120
 20
53.5516550
  0
VERTEX
  8
0
 10
9.9370480
 20
53.5516550
  0
VERTEX
  8
0
 10
9.9370050
 20
53.5516760
  0
VERTEX
  8
0
 10
9.9369620
 20
53.5516760
  0
VERTEX
  8
0
 10
9.9369190
 20
53.5516980
  0
VERTEX
  8
0
 10
9.9369190
 20
53.5516980
  0
VERTEX
  8
0
 10
9.9368980
 20
53.5516980
  0
VERTEX
  8
0
 10
9.9367260
 20
53.5516760
  0
SEQEND
  0
POLYLINE
  8
0
 66
     1
  0
VERTEX
  8
0
 10
9.9362110
 20
53.5517840
  0
VERTEX
  8
0
 10
9.9361900
 20
53.5517840
  0
VERTEX
  8
0
 10
9.9361680
 20
53.5517840
  0
VERTEX
  8
0
 10
9.9361900
 20
53.5517620
  0
VERTEX
  8
0
 10
9.9361900
 20
53.5517620
  0
VERTEX
  8
0
 10
9.9361900
 20
53.5517620
  0
VERTEX
  8
0
 10
9.9361900
 20
53.5517620
  0
VERTEX
  8
0
 10
9.9361900
 20
53.5517620
  0
VERTEX
  8
0
 10
9.9361900
 20
53.5517620
  0
VERTEX
  8
0
 10
9.9361900
 20
53.5517620
  0
VERTEX
  8
0
 10
9.9362330
 20
53.5517620
  0
VERTEX
  8
0
 10
9.9362540
 20
53.5517840
  0
SEQEND
  0
POLYLINE
  8
0
 66
     1
  0
VERTEX
  8
0
 10
9.9370690
 20
53.5515690
  0
VERTEX
  8
0
 10
9.9370050
 20
53.5516760
  0
VERTEX
  8
0
 10
9.9370050
 20
53.5516760
  0
VERTEX
  8
0
 10
9.9371120
 20
53.5517190
  0
VERTEX
  8
0
 10
9.9371340
 20
53.5516760
  0
VERTEX
  8
0
 10
9.9371340
 20
53.5516980
  0
VERTEX
  8
0
 10
9.9372200
 20
53.5516980
  0
VERTEX
  8
0
 10
9.9372630
 20
53.5516760
  0
VERTEX
  8
0
 10
9.9373480
 20
53.5516980
  0
VERTEX
  8
0
 10
9.9373700
 20
53.5516980
  0
VERTEX
  8
0
 10
9.9374560
 20
53.5516980
  0
VERTEX
  8
0
 10
9.9374770
 20
53.5516980
  0
VERTEX
  8
0
 10
9.9375200
 20
53.5516980
  0
VERTEX
  8
0
 10
9.9375410
 20
53.5516980
  0
VERTEX
  8
0
 10
9.9376060
 20
53.5516760
  0
VERTEX
  8
0
 10
9.9376700
 20
53.5516760
  0
VERTEX
  8
0
 10
9.9378420
 20
53.5516760
  0
VERTEX
  8
0
 10
9.9379060
 20
53.5516760
  0
VERTEX
  8
0
 10
9.9379060
 20
53.5516760
  0
VERTEX
  8
0
 10
9.9379710
 20
53.5516760
  0
VERTEX
  8
0
 10
9.9380990
 20
53.5516760
  0
VERTEX
  8
0
 10
9.9380990
 20
53.5516760
  0
VERTEX
  8
0
 10
9.9381640
 20
53.5516980
  0
VERTEX
  8
0
 10
9.9382500
 20
53.5516980
  0
VERTEX
  8
0
 10
9.9384860
 20
53.5516550
  0
VERTEX
  8
0
 10
9.9385070
 20
53.5516550
  0
VERTEX
  8
0
 10
9.9385710
 20
53.5516550
  0
VERTEX
  8
0
 10
9.9386140
 20
53.5516550
  0
VERTEX
  8
0
 10
9.9387000
 20
53.5516550
  0
VERTEX
  8
0
 10
9.9388070
 20
53.5516330
  0
VERTEX
  8
0
 10
9.9389150
 20
53.5516330
  0
VERTEX
  8
0
 10
9.9390220
 20
53.5516120
  0
VERTEX
  8
0
 10
9.9391290
 20
53.5516120
  0
VERTEX
  8
0
 10
9.9391720
 20
53.5516120
  0
VERTEX
  8
0
 10
9.9393010
 20
53.5516120
  0
VERTEX
  8
0
 10
9.9394300
 20
53.5516330
  0
VERTEX
  8
0
 10
9.9395160
 20
53.5516550
  0
VERTEX
  8
0
 10
9.9395370
 20
53.5516550
  0
VERTEX
  8
0
 10
9.9396660
 20
53.5516760
  0
VERTEX
  8
0
 10
9.9397090
 20
53.5516760
  0
VERTEX
  8
0
 10
9.9397520
 20
53.5516760
  0
VERTEX
  8
0
 10
9.9398160
 20
53.5516760
  0
VERTEX
  8
0
 10
9.9398590
 20
53.5516980
  0
VERTEX
  8
0
 10
9.9399020
 20
53.5516980
  0
VERTEX
  8
0
 10
9.9399230
 20
53.5516980
  0
VERTEX
  8
0
 10
9.9400310
 20
53.5517190
  0
VERTEX
  8
0
 10
9.9400730
 20
53.5517190
  0
VERTEX
  8
0
 10
9.9401590
 20
53.5517410
  0
VERTEX
  8
0
 10
9.9402240
 20
53.5517410
  0
VERTEX
  8
0
 10
9.9403100
 20
53.5517410
  0
VERTEX
  8
0
 10
9.9403520
 20
53.5517620
  0
VERTEX
  8
0
 10
9.9403950
 20
53.5517620
  0
VERTEX
  8
0
 10
9.9404810
 20
53.5517620
  0
VERTEX
  8
0
 10
9.9405030
 20
53.5517620
  0
VERTEX
  8
0
 10
9.9405460
 20
53.5517840
  0
VERTEX
  8
0
 10
9.9406100
 20
53.5517620
  0
VERTEX
  8
0
 10
9.9406740
 20
53.5517620
  0
VERTEX
  8
0
 10
9.9407390
 20
53.5517840
  0
VERTEX
  8
0
 10
9.9408460
 20
53.5517840
  0
VERTEX
  8
0
 10
9.9410610
 20
53.5518050
  0
VERTEX
  8
0
 10
9.9411460
 20
53.5518050
  0
VERTEX
  8
0
 10
9.9411680
 20
53.5518050
  0
VERTEX
  8
0
 10
9.9412110
 20
53.5518050
  0
VERTEX
  8
0
 10
9.9412750
 20
53.5518050
  0
VERTEX
  8
0
 10
9.9414250
 20
53.5518050
  0
VERTEX
  8
0
 10
9.9414900
 20
53.5518050
  0
VERTEX
  8
0
 10
9.9415760
 20
53.5517840
  0
VERTEX
  8
0
 10
9.9415760
 20
53.5517840
  0
VERTEX
  8
0
 10
9.9416400
 20
53.5517840
  0
VERTEX
  8
0
 10
9.9417470
 20
53.5517840
  0
VERTEX
  8
0
 10
9.9417260
 20
53.5517620
  0
VERTEX
  8
0
 10
9.9417260
 20
53.5517620
  0
VERTEX
  8
0
 10
9.9417900
 20
53.5517190
  0
VERTEX
  8
0
 10
9.9418970
 20
53.5517190
  0
VERTEX
  8
0
 10
9.9420480
 20
53.5517410
  0
VERTEX
  8
0
 10
9.9420910
 20
53.5517410
  0
VERTEX
  8
0
 10
9.9423270
 20
53.5517190
  0
VERTEX
  8
0
 10
9.9423480
 20
53.5517190
  0
VERTEX
  8
0
 10
9.9424340
 20
53.5517620
  0
VERTEX
  8
0
 10
9.9424770
 20
53.5517620
  0
VERTEX
  8
0
 10
9.9425630
 20
53.5517620
  0
VERTEX
  8
0
 10
9.9426480
 20
53.5517620
  0
VERTEX
  8
0
 10
9.9426480
 20
53.5517620
  0
VERTEX
  8
0
 10
9.9427560
 20
53.5517620
  0
VERTEX
  8
0
 10
9.9427560
 20
53.5517840
  0
VERTEX
  8
0
 10
9.9428420
 20
53.5518260
  0
VERTEX
  8
0
 10
9.9428420
 20
53.5518050
  0
VERTEX
  8
0
 10
9.9429270
 20
53.5517840
  0
VERTEX
  8
0
 10
9.9431200
 20
53.5517840
  0
VERTEX
  8
0
 10
9.9431850
 20
53.5517840
  0
VERTEX
  8
0
 10
9.9432710
 20
53.5517620
  0
VERTEX
  8
0
 10
9.9433140
 20
53.5517840
  0
VERTEX
  8
0
 10
9.9433350
 20
53.5517840
  0
VERTEX
  8
0
 10
9.9433780
 20
53.5517840
  0
VERTEX
  8
0
 10
9.9433990
 20
53.5517840
  0
VERTEX
  8
0
 10
9.9434420
 20
53.5518260
  0
VERTEX
  8
0
 10
9.9434640
 20
53.5518050
  0
VERTEX
  8
0
 10
9.9435070
 20
53.5518050
  0
VERTEX
  8
0
 10
9.9435280
 20
53.5518050
  0
VERTEX
  8
0
 10
9.9435500
 20
53.5518050
  0
VERTEX
  8
0
 10
9.9435500
 20
53.5518050
  0
VERTEX
  8
0
 10
9.9435930
 20
53.5518050
  0
VERTEX
  8
0
 10
9.9436140
 20
53.5517840
  0
VERTEX
  8
0
 10
9.9436780
 20
53.5517620
  0
VERTEX
  8
0
 10
9.9437210
 20
53.5517840
  0
VERTEX
  8
0
 10
9.9437210
 20
53.5517620
  0
VERTEX
  8
0
 10
9.9437430
 20
53.5517620
  0
VERTEX
  8
0
 10
9.9437210
 20
53.5518690
  0
SEQEND
  0
POLYLINE
  8
0
 66
     1
  0
VERTEX
  8
0
 10
9.9437640
 20
53.5519550
  0
VERTEX
  8
0
 10
9.9437640
 20
53.5518910
  0
VERTEX
  8
0
 10
9.9438710
 20
53.5519340
  0
VERTEX
  8
0
 10
9.9438930
 20
53.5519340
  0
VERTEX
  8
0
 10
9.9439360
 20
53.5518690
  0
VERTEX
  8
0
 10
9.9439790
 20
53.5518260
  0
SEQEND
  0
POLYLINE
  8
0
 66
     1
  0
VERTEX
  8
0
 10
9.9446440
 20
53.5526200
  0
VERTEX
  8
0
 10
9.9444940
 20
53.5516330
  0
VERTEX
  8
0
 10
9.9445370
 20
53.5516120
  0
VERTEX
  8
0
 10
9.9446010
 20
53.5516120
  0
VERTEX
  8
0
 10
9.9447940
 20
53.5515900
  0
VERTEX
  8
0
 10
9.9448370
 20
53.5515900
  0
VERTEX
  8
0
 10
9.9451380
 20
53.5515480
  0
VERTEX
  8
0
 10
9.9451800
 20
53.5515480
  0
SEQEND
  0
POLYLINE
  8
0
 66
     1
  0
VERTEX
  8
0
 10
9.9456100
 20
53.5512470
  0
VERTEX
  8
0
 10
9.9453090
 20
53.5516980
  0
VERTEX
  8
0
 10
9.9453520
 20
53.5517840
  0
VERTEX
  8
0
 10
9.9453520
 20
53.5517840
  0
VERTEX
  8
0
 10
9.9453950
 20
53.5517840
  0
VERTEX
  8
0
 10
9.9454380
 20
53.5517620
  0
VERTEX
  8
0
 10
9.9454590
 20
53.5517620
  0
VERTEX
  8
0
 10
9.9454810
 20
53.5517410
  0
VERTEX
  8
0
 10
9.9455240
 20
53.5517190
  0
VERTEX
  8
0
 10
9.9457380
 20
53.5515900
  0
VERTEX
  8
0
 10
9.9457810
 20
53.5515900
  0
VERTEX
  8
0
 10
9.9458030
 20
53.5515900
  0
VERTEX
  8
0
 10
9.9457810
 20
53.5515480
  0
VERTEX
  8
0
 10
9.9458890
 20
53.5515050
  0
VERTEX
  8
0
 10
9.9459100
 20
53.5515050
  0
VERTEX
  8
0
 10
9.9459960
 20
53.5514830
  0
VERTEX
  8
0
 10
9.9460390
 20
53.5514830
  0
VERTEX
  8
0
 10
9.9461890
 20
53.5514620
  0
VERTEX
  8
0
 10
9.9462320
 20
53.5514400
  0
VERTEX
  8
0
 10
9.9463610
 20
53.5514400
  0
VERTEX
  8
0
 10
9.9464250
 20
53.5514400
  0
VERTEX
  8
0
 10
9.9464460
 20
53.5514400
  0
VERTEX
  8
0
 10
9.9465110
 20
53.5514400
  0
VERTEX
  8
0
 10
9.9465750
 20
53.5514400
  0
VERTEX
  8
0
 10
9.9466400
 20
53.5514620
  0
VERTEX
  8
0
 10
9.9467250
 20
53.5514620
  0
VERTEX
  8
0
 10
9.9467470
 20
53.5514830
  0
VERTEX
  8
0
 10
9.9467470
 20
53.5514830
  0
VERTEX
  8
0
 10
9.9468110
 20
53.5514830
  0
VERTEX
  8
0
 10
9.9469610
 20
53.5515050
  0
VERTEX
  8
0
 10
9.9470260
 20
53.5515050
  0
VERTEX
  8
0
 10
9.9470470
 20
53.5515050
  0
SEQEND
  0
POLYLINE
  8
0
 66
     1
  0
VERTEX
  8
0
 10
9.9471330
 20
53.5515260
  0
VERTEX
  8
0
 10
9.9471330
 20
53.5515260
  0
VERTEX
  8
0
 10
9.9470260
 20
53.5515690
  0
VERTEX
  8
0
 10
9.9470260
 20
53.5516330
  0
VERTEX
  8
0
 10
9.9470040
 20
53.5516330
  0
VERTEX
  8
0
 10
9.9469830
 20
53.5516120
  0
VERTEX
  8
0
 10
9.9469610
 20
53.5515900
  0
VERTEX
  8
0
 10
9.9468540
 20
53.5515480
  0
VERTEX
  8
0
 10
9.9467900
 20
53.5515480
  0
VERTEX
  8
0
 10
9.9467470
 20
53.5515480
  0
VERTEX
  8
0
 10
9.9466610
 20
53.5515260
  0
VERTEX
  8
0
 10
9.9466180
 20
53.5515260
  0
VERTEX
  8
0
 10
9.9464890
 20
53.5515050
  0
VERTEX
  8
0
 10
9.9464680
 20
53.5514830
  0
VERTEX
  8
0
 10
9.9464040
 20
53.5514830
  0
VERTEX
  8
0
 10
9.9463820
 20
53.5514830
  0
VERTEX
  8
0
 10
9.9463180
 20
53.5514830
  0
VERTEX
  8
0
 10
9.9463180
 20
53.5514830
  0
VERTEX
  8
0
 10
9.9462960
 20
53.5514620
  0
VERTEX
  8
0
 10
9.9463180
 20
53.5514400
  0
VERTEX
  8
0
 10
9.9462320
 20
53.5514400
  0
VERTEX
  8
0
 10
9.9461890
 20
53.5514400
  0
VERTEX
  8
0
 10
9.9461030
 20
53.5514620
  0
VERTEX
  8
0
 10
9.9460820
 20
53.5514400
  0
VERTEX
  8
0
 10
9.9460600
 20
53.5513970
  0
VERTEX
  8
0
 10
9.9459100
 20
53.5513760
  0
VERTEX
  8
0
 10
9.9458890
 20
53.5513760
  0
VERTEX
  8
0
 10
9.9458890
 20
53.5513760
  0
VERTEX
  8
0
 10
9.9458890
 20
53.5513540
  0
VERTEX
  8
0
 10
9.9458460
 20
53.5512690
  0
VERTEX
  8
0
 10
9.9458460
 20
53.5512470
  0
VERTEX
  8
0
 10
9.9457810
 20
53.5512040
  0
VERTEX
  8
0
 10
9.9457600
 20
53.5511610
  0
VERTEX
  8
0
 10
9.9457170
 20
53.5511610
  0
VERTEX
  8
0
 10
9.9456740
 20
53.5511400
  0
VERTEX
  8
0
 10
9.9456740
 20
53.5511400
  0
VERTEX
  8
0
 10
9.9456310
 20
53.5511180
  0
VERTEX
  8
0
 10
9.9455670
 20
53.5511180
  0
VERTEX
  8
0
 10
9.9455020
 20
53.5510970
  0
VERTEX
  8
0
 10
9.9454380
 20
53.5510970
  0
VERTEX
  8
0
 10
9.9454590
 20
53.5510750
  0
VERTEX
  8
0
 10
9.9454160
 20
53.5510750
  0
VERTEX
  8
0
 10
9.9453740
 20
53.5510970
  0
VERTEX
  8
0
 10
9.9453950
 20
53.5510970
  0
VERTEX
  8
0
 10
9.9452880
 20
53.5510750
  0
VERTEX
  8
0
 10
9.9452450
 20
53.5510540
  0
VERTEX
  8
0
 10
9.9451590
 20
53.5510330
  0
VERTEX
  8
0
 10
9.9450520
 20
53.5510110
  0
VERTEX
  8
0
 10
9.9450300
 20
53.5509900
  0
VERTEX
  8
0
 10
9.9449230
 20
53.5509900
  0
VERTEX
  8
0
 10
9.9448800
 20
53.5509680
  0
VERTEX
  8
0
 10
9.9448590
 20
53.5509680
  0
VERTEX
  8
0
 10
9.9447730
 20
53.5509680
  0
VERTEX
  8
0
 10
9.9447080
 20
53.5509470
  0
VERTEX
  8
0
 10
9.9447080
 20
53.5509470
  0
VERTEX
  8
0
 10
9.9446650
 20
53.5509250
  0
VERTEX
  8
0
 10
9.9446230
 20
53.5509250
  0
VERTEX
  8
0
 10
9.9445800
 20
53.5509040
  0
VERTEX
  8
0
 10
9.9444940
 20
53.5509040
  0
VERTEX
  8
0
 10
9.9444940
 20
53.5509040
  0
SEQEND
  0
POLYLINE
  8
0
 66
     1
  0
VERTEX
  8
0
 10
9.9444720
 20
53.5509250
  0
VERTEX
  8
0
 10
9.9444510
 20
53.5509250
  0
VERTEX
  8
0
 10
9.9442360
 20
53.5509250
  0
VERTEX
  8
0
 10
9.9441720
 20
53.5509040
  0
VERTEX
  8
0
 10
9.9441290
 20
53.5508820
  0
VERTEX
  8
0
 10
9.9441080
 20
53.5508820
  0
VERTEX
  8
0
 10
9.9440650
 20
53.5508610
  0
VERTEX
  8
0
 10
9.9440220
 20
53.5508610
  0
VERTEX
  8
0
 10
9.9439140
 20
53.5508820
  0
VERTEX
  8
0
 10
9.9438930
 20
53.5508820
  0
VERTEX
  8
0
 10
9.9438500
 20
53.5508820
  0
VERTEX
  8
0
 10
9.9438500
 20
53.5509040
  0
VERTEX
  8
0
 10
9.9438070
 20
53.5509680
  0
VERTEX
  8
0
 10
9.9437430
 20
53.5510110
  0
VERTEX
  8
0
 10
9.9436780
 20
53.5510330
  0
VERTEX
  8
0
 10
9.9434420
 20
53.5510750
  0
VERTEX
  8
0
 10
9.9433990
 20
53.5510750
  0
SEQEND
  0
POLYLINE
  8
0
 66
     1
  0
VERTEX
  8
0
 10
9.9428420
 20
53.5511180
  0
VERTEX
  8
0
 10
9.9428200
 20
53.5510970
  0
VERTEX
  8
0
 10
9.9427990
 20
53.5511180
  0
VERTEX
  8
0
 10
9.9427560
 20
53.5510750
  0
VERTEX
  8
0
 10
9.9426910
 20
53.5511180
  0
VERTEX
  8
0
 10
9.9426480
 20
53.5511400
  0
VERTEX
  8
0
 10
9.9425840
 20
53.5510970
  0
VERTEX
  8
0
 10
9.9425410
 20
53.5510970
  0
VERTEX
  8
0
 10
9.9424340
 20
53.5510750
  0
VERTEX
  8
0
 10
9.9423690
 20
53.5510750
  0
VERTEX
  8
0
 10
9.9423690
 20
53.5510750
  0
VERTEX
  8
0
 10
9.9423050
 20
53.5510970
  0
VERTEX
  8
0
 10
9.9422840
 20
53.5510970
  0
VERTEX
  8
0
 10
9.9422190
 20
53.5510970
  0
VERTEX
  8
0
 10
9.9421550
 20
53.5510970
  0
VERTEX
  8
0
 10
9.9421550
 20
53.5511180
  0
VERTEX
  8
0
 10
9.9420910
 20
53.5511180
  0
VERTEX
  8
0
 10
9.9420260
 20
53.5511180
  0
VERTEX
  8
0
 10
9.9419830
 20
53.5511180
  0
VERTEX
  8
0
 10
9.9420050
 20
53.5511180
  0
VERTEX
  8
0
 10
9.9419830
 20
53.5510970
  0
VERTEX
  8
0
 10
9.9418970
 20
53.5511180
  0
VERTEX
  8
0
 10
9.9417690
 20
53.5511180
  0
VERTEX
  8
0
 10
9.9417260
 20
53.5511180
  0
VERTEX
  8
0
 10
9.9415760
 20
53.5511180
  0
VERTEX
  8
0
 10
9.9415110
 20
53.5511180
  0
VERTEX
  8
0
 10
9.9415110
 20
53.5511180
  0
VERTEX
  8
0
 10
9.9414470
 20
53.5511400
  0
VERTEX
  8
0
 10
9.9414250
 20
53.5511400
  0
VERTEX
  8
0
 10
9.9413820
 20
53.5511400
  0
VERTEX
  8
0
 10
9.9413610
 20
53.5511400
  0
VERTEX
  8
0
 10
9.9413610
 20
53.5511400
  0
VERTEX
  8
0
 10
9.9412970
 20
53.5511400
  0
VERTEX
  8
0
 10
9.9412970
 20
53.5511400
  0
VERTEX
  8
0
 10
9.9412750
 20
53.5511610
  0
VERTEX
  8
0
 10
9.9412750
 20
53.5511610
  0
SEQEND
  0
POLYLINE
  8
0
 66
     1
  0
VERTEX
  8
0
 10
9.9414040
 20
53.5510750
  0
SEQEND
  0
POLYLINE
  8
0
 66
     1
  0
VERTEX
  8
0
 10
9.9415760
 20
53.5517410
  0
VERTEX
  8
0
 10
9.9413390
 20
53.5516550
  0
VERTEX
  8
0
 10
9.9414250
 20
53.5517410
  0
SEQEND
  0
POLYLINE
  8
0
 66
     1
  0
VERTEX
  8
0
 10
9.9408460
 20
53.5514190
  0
VERTEX
  8
0
 10
9.9408890
 20
53.5513540
  0
VERTEX
  8
0
 10
9.9409100
 20
53.5513540
  0
VERTEX
  8
0
 10
9.9409100
 20
53.5513330
  0
VERTEX
  8
0
 10
9.9409100
 20
53.5513330
  0
VERTEX
  8
0
 10
9.9409960
 20
53.5513760
  0
VERTEX
  8
0
 10
9.9410180
 20
53.5513760
  0
VERTEX
  8
0
 10
9.9410390
 20
53.5514190
  0
VERTEX
  8
0
 10
9.9410820
 20
53.5514190
  0
VERTEX
  8
0
 10
9.9411890
 20
53.5515050
  0
VERTEX
  8
0
 10
9.9411890
 20
53.5515260
  0
VERTEX
  8
0
 10
9.9410820
 20
53.5515690
  0
VERTEX
  8
0
 10
9.9410610
 20
53.5515690
  0
VERTEX
  8
0
 10
9.9409960
 20
53.5515480
  0
VERTEX
  8
0
 10
9.9409750
 20
53.5515480
  0
VERTEX
  8
0
 10
9.9409530
 20
53.5515480
  0
VERTEX
  8
0
 10
9.9409530
 20
53.5515480
  0
VERTEX
  8
0
 10
9.9409750
 20
53.5515480
  0
VERTEX
  8
0
 10
9.9410390
 20
53.5515900
  0
VERTEX
  8
0
 10
9.9410390
 20
53.5515900
  0
VERTEX
  8
0
 10
9.9410820
 20
53.5515900
  0
VERTEX
  8
0
 10
9.9411030
 20
53.5516120
  0
VERTEX
  8
0
 10
9.9411250
 20
53.5516120
  0
VERTEX
  8
0
 10
9.9411250
 20
53.5516330
  0
VERTEX
  8
0
 10
9.9411250
 20
53.5516120
  0
VERTEX
  8
0
 10
9.9411460
 20
53.5515690
  0
VERTEX
  8
0
 10
9.9411680
 20
53.5515480
  0
VERTEX
  8
0
 10
9.9411890
 20
53.5515260
  0
VERTEX
  8
0
 10
9.9411890
 20
53.5515260
  0
SEQEND
  0
POLYLINE
  8
0
 66
     1
  0
VERTEX
  8
0
 10
9.9412750
 20
53.5513540
  0
VERTEX
  8
0
 10
9.9413180
 20
53.5513760
  0
VERTEX
  8
0
 10
9.9414040
 20
53.5513540
  0
VERTEX
  8
0
 10
9.9414470
 20
53.5513540
  0
VERTEX
  8
0
 10
9.9416400
 20
53.5514190
  0
VERTEX
  8
0
 10
9.9417040
 20
53.5514190
  0
VERTEX
  8
0
 10
9.9417040
 20
53.5513540
  0
VERTEX
  8
0
 10
9.9417040
 20
53.5513540
  0
VERTEX
  8
0
 10
9.9418330
 20
53.5514400
  0
VERTEX
  8
0
 10
9.9419400
 20
53.5515050
  0
VERTEX
  8
0
 10
9.9420050
 20
53.5515480
  0
VERTEX
  8
0
 10
9.9420480
 20
53.5515900
  0
VERTEX
  8
0
 10
9.9420480
 20
53.5516120
  0
VERTEX
  8
0
 10
9.9420690
 20
53.5516330
  0
VERTEX
  8
0
 10
9.9420910
 20
53.5516760
  0
VERTEX
  8
0
 10
9.9420910
 20
53.5516980
  0
VERTEX
  8
0
 10
9.9420910
 20
53.5516980
  0
VERTEX
  8
0
 10
9.9421120
 20
53.5516980
  0
VERTEX
  8
0
 10
9.9421120
 20
53.5517190
  0
VERTEX
  8
0
 10
9.9421120
 20
53.5517410
  0
VERTEX
  8
0
 10
9.9420910
 20
53.5517410
  0
VERTEX
  8
0
 10
9.9421330
 20
53.5516760
  0
VERTEX
  8
0
 10
9.9421980
 20
53.5516760
  0
VERTEX
  8
0
 10
9.9422410
 20
53.5516550
  0
VERTEX
  8
0
 10
9.9422620
 20
53.5516550
  0
VERTEX
  8
0
 10
9.9422840
 20
53.5516330
  0
VERTEX
  8
0
 10
9.9423480
 20
53.5515480
  0
VERTEX
  8
0
 10
9.9424550
 20
53.5514400
  0
VERTEX
  8
0
 10
9.9424770
 20
53.5513110
  0
VERTEX
  8
0
 10
9.9424550
 20
53.5512900
  0
VERTEX
  8
0
 10
9.9424340
 20
53.5512690
  0
VERTEX
  8
0
 10
9.9424340
 20
53.5512690
  0
VERTEX
  8
0
 10
9.9424550
 20
53.5512900
  0
VERTEX
  8
0
 10
9.9424550
 20
53.5512900
  0
VERTEX
  8
0
 10
9.9425200
 20
53.5512900
  0
VERTEX
  8
0
 10
9.9425200
 20
53.5512900
  0
VERTEX
  8
0
 10
9.9425410
 20
53.5512900
  0
VERTEX
  8
0
 10
9.9425630
 20
53.5512900
  0
SEQEND
  0
POLYLINE
  8
0
 66
     1
  0
VERTEX
  8
0
 10
9.9426050
 20
53.5512260
  0
VERTEX
  8
0
 10
9.9415330
 20
53.5510970
  0
VERTEX
  8
0
 10
9.9415760
 20
53.5510970
  0
VERTEX
  8
0
 10
9.9416180
 20
53.5511180
  0
VERTEX
  8
0
 10
9.9416830
 20
53.5511180
  0
VERTEX
  8
0
 10
9.9420690
 20
53.5510970
  0
VERTEX
  8
0
 10
9.9421980
 20
53.5510970
  0
VERTEX
  8
0
 10
9.9422840
 20
53.5510970
  0
VERTEX
  8
0
 10
9.9423690
 20
53.5510750
  0
VERTEX
  8
0
 10
9.9425840
 20
53.5510110
  0
VERTEX
  8
0
 10
9.9426910
 20
53.5510330
  0
VERTEX
  8
0
 10
9.9427340
 20
53.5510750
  0
VERTEX
  8
0
 10
9.9428200
 20
53.5510750
  0
SEQEND
  0
POLYLINE
  8
0
 66
     1
  0
VERTEX
  8
0
 10
9.9427340
 20
53.5517840
  0
VERTEX
  8
0
 10
9.9427130
 20
53.5517410
  0
SEQEND
  0
ENDSEC
  0
EOF
